SlideShare uma empresa Scribd logo
1 de 5
Baixar para ler offline
 



Borboletas - Victor e Leo
Tom: D

Intro:
     Bm

E|---------------------------------2-5----------|
B|---------2h3p2-------------2h3h5------5-3-3---|
G|-------4-------4---------4--------------------|
D|---2h4-----------4---2h4----------------------|
A|----------------------------------------------|
E|----------------------------------------------|

      Bm                             A
E|-------------------------------------------------------------------|
B|-------------------------------------------------------------------|
G|---2-4-4-2---4-2---4-4-2---4-4-2---2-2-----2-----2-2-----2-2-------|
D|-4---------4-----4-------4-------4-----4-2---4-2-----4-2-----4-2---|
A|-------------------------------------------------------------------|
E|-------------------------------------------------------------------|

   Bm                                         G         A
E|-------------------------------------------------3-3------5-5------------|
B|-3-3-2---3-2---3-3-2---2-3-2---------------------3-3------5-5------------|
G|-------4-----4-------4-------2-4---2-2-4-4-------4-4------6-6--6-6-7-6---|
D|-------------------------------4---2-2-4-4-----5--------7------7-7-7-7---|
A|-------------------------------------------------------------------------|
E|---------------------------------------------3--------5------------------|

Riff 1:

E|-------------|
B|---7p5-------|
G|-------6h7---|
D|-------------|
A|-------------|
E|-------------|

Riff 2:

E|-----------------|
B|---2h3p2---------|
G|---------2-2h4---|
D|-----------------|
A|-----------------|
E|-----------------|




	
  
 

Riff 3:

E|-------------------|
B|-------7-7-7h8-8---|
G|---6h7-------------|
D|-------------------|
A|-------------------|
E|-------------------|

Riff 4:

E|-------------------|
B|-------------------|
G|-----------2-4-4---|
D|-------2h4---------|
A|---2h4-------------|
E|-------------------|

Riff 5:       Riff 6:

E|-----------------|-------------------|
B|---------2-3-5---|-------------------|
G|-------4---------|-------------------|
D|---2h4-----------|---7-7-7-7-6-4-----|
A|-----------------|---5-5-5-5-4-2-7---|
E|-----------------|---------------5---|

  Bm                       D
Percebo que o tempo já não passa
                       A    Bm        (riff 1)
Você diz que não tem graça amar assim
    Bm                   D
Foi tudo tão bonito, mas voou pro infinito
     A             Bm
Parecido com borboletas de um jardim

(riff 2) Em        G
        Agora você volta
      D                        A
E balança o que eu sentia por outro alguém
(riff 3) Em                 G
        Dividido entre dois mundos
               A                       Bm
Sei que estou amando mas ainda não sei quem




	
  
 

Refrão:
           G           D
Não sei dizer o que mudou
      A        Bm
Mas nada está igual
        G              D           A           Bm
Numa noite estranha a gente se estranha e fica mal
   G          D        A             Bm
Você tenta provar que tudo em nós morreu
      G            D
Borboletas sempre voltam
    A             Bm
E o seu jardim sou eu.


Solo
       Bm

E|---14-14-14--15-15-15--14-14-14-14-14-14--15-15-15-15---|
B|---15-15-15--15-15-15--15-15-15-15-15-15--15-15-15-15---|
G|--------------------------------------------------------|
D|--------------------------------------------------------|
A|--------------------------------------------------------|
E|--------------------------------------------------------|

         D
E|-14-14-14--15-15-15--14-14-14-14-14-14--15-15-15-15---|
B|-15-15-15--15-15-15--15-15-15-15-15-15--15-15-15-15---|
G|------------------------------------------------------|
D|------------------------------------------------------|
A|------------------------------------------------------|
E|------------------------------------------------------|

         A                                                 F#m
E|-14-14-14--15-15-15--14-14-14-14-14-1412--12-12-129--9--9----|
B|-15-15-15--15-15-15--15-15-15-15-15-1514--14-14-1410-10-10---|
G|---------------------------------------------------------------|
D|---------------------------------------------------------------|
A|---------------------------------------------------------------|
E|---------------------------------------------------------------|

            G        A
E|---------------3-3------5-5------------|
B|---------------3-3------5-5------------|
G|-2-2-4-4-------4-4------6-6--6-6-7-6---|
D|-2-2-4-4-----5--------7------7-7-7-7---|
A|---------------------------------------|
E|-----------3--------5------------------|




	
  
 

  Bm                       D
Percebo que o tempo já não passa
                       A    Bm        (riff 4)
Você diz que não tem graça amar assim
    Bm                   D
Foi tudo tão bonito, mas voou pro infinito
     A             Bm
Parecido com borboletas de um jardim

(riff 2) Em        G
        Agora você volta
      D                        A
E balança o que eu sentia por outro alguém
(riff 5) Em                 G
        Dividido entre dois mundos
               A                       Bm
Sei que estou amando mas ainda não sei quem

(refrão)

           G           D (riff 6)
Não sei dizer o que mudou
      A        Bm
Mas nada está igual
        G              D           A           Bm
Numa noite estranha a gente se estranha e fica mal
   G          D        A             Bm
Você tenta provar que tudo em nós morreu
      G            D
Borboletas sempre voltam
    A             Bm
E o seu jardim sou eu.
G         D
 Sempre voltam
    A             Bm
E o seu jardim sou eu.

Solo:
        Bm

E|---16-16-16--17-17-17--16-16-16-16-16-16--17-17---------2---|
B|---17-17-17--17-17-17--17-17-17-17-17-17--17-17---------2---|
G|--------------------------------------------------------4---|
D|--------------------------------------------------------4---|
A|--------------------------------------------------------2---|
E|------------------------------------------------------------|
                                       	
  


	
  
 




              	
  
       	
  
       	
  




                     	
  




	
  

Mais conteúdo relacionado

Semelhante a Borboletas - Victor e Leo

Borboletas
BorboletasBorboletas
Borboletas3339888
 
Pais e filhos
Pais e filhosPais e filhos
Pais e filhosacildo
 
Amor de alma (Victor e Leo) (Cifra Completa)
Amor de alma (Victor e Leo) (Cifra Completa)Amor de alma (Victor e Leo) (Cifra Completa)
Amor de alma (Victor e Leo) (Cifra Completa)Gusfil
 
Boa sorte pra você
Boa sorte pra vocêBoa sorte pra você
Boa sorte pra vocêGusfil
 
Borboletas
BorboletasBorboletas
BorboletasGusfil
 
é Preciso saber viver titas
é Preciso saber viver   titasé Preciso saber viver   titas
é Preciso saber viver titasXAPURIAC
 
Toca o telefone (Adelink Nascimento)
Toca o telefone (Adelink Nascimento)Toca o telefone (Adelink Nascimento)
Toca o telefone (Adelink Nascimento)Gusfil
 
Sem Trânsito, Sem Avião
Sem Trânsito, Sem AviãoSem Trânsito, Sem Avião
Sem Trânsito, Sem AviãoGusfil
 

Semelhante a Borboletas - Victor e Leo (9)

Borboletas
BorboletasBorboletas
Borboletas
 
Pais e filhos
Pais e filhosPais e filhos
Pais e filhos
 
Amor de alma (Victor e Leo) (Cifra Completa)
Amor de alma (Victor e Leo) (Cifra Completa)Amor de alma (Victor e Leo) (Cifra Completa)
Amor de alma (Victor e Leo) (Cifra Completa)
 
Boa sorte pra você
Boa sorte pra vocêBoa sorte pra você
Boa sorte pra você
 
Borboletas
BorboletasBorboletas
Borboletas
 
é Preciso saber viver titas
é Preciso saber viver   titasé Preciso saber viver   titas
é Preciso saber viver titas
 
Toca o telefone (Adelink Nascimento)
Toca o telefone (Adelink Nascimento)Toca o telefone (Adelink Nascimento)
Toca o telefone (Adelink Nascimento)
 
Sem Trânsito, Sem Avião
Sem Trânsito, Sem AviãoSem Trânsito, Sem Avião
Sem Trânsito, Sem Avião
 
Cifras
CifrasCifras
Cifras
 

Mais de conexart

Boletim 2013 wesley gonçalves florentino
Boletim 2013   wesley gonçalves florentinoBoletim 2013   wesley gonçalves florentino
Boletim 2013 wesley gonçalves florentinoconexart
 
Boletim 2013 mateus patriota
Boletim 2013   mateus patriotaBoletim 2013   mateus patriota
Boletim 2013 mateus patriotaconexart
 
Tarefa 2º ano
Tarefa 2º anoTarefa 2º ano
Tarefa 2º anoconexart
 
Tarefa 3º ano
Tarefa 3º anoTarefa 3º ano
Tarefa 3º anoconexart
 
Cadencia harmonica
Cadencia harmonicaCadencia harmonica
Cadencia harmonicaconexart
 
Cadencia harmonica
Cadencia harmonicaCadencia harmonica
Cadencia harmonicaconexart
 
Gnr sweet child o' mine (without chords - guitar tabs)
Gnr   sweet child o' mine (without chords - guitar tabs)Gnr   sweet child o' mine (without chords - guitar tabs)
Gnr sweet child o' mine (without chords - guitar tabs)conexart
 
Songbook -as_101_melhores_canções_do_século_xx_-_vol._1_-_almir_chediak
Songbook  -as_101_melhores_canções_do_século_xx_-_vol._1_-_almir_chediakSongbook  -as_101_melhores_canções_do_século_xx_-_vol._1_-_almir_chediak
Songbook -as_101_melhores_canções_do_século_xx_-_vol._1_-_almir_chediakconexart
 
Nelson faria - Acordes Arpejos e Escalas para violão e guitarra
Nelson faria - Acordes Arpejos e Escalas para violão e guitarraNelson faria - Acordes Arpejos e Escalas para violão e guitarra
Nelson faria - Acordes Arpejos e Escalas para violão e guitarraconexart
 
Aula experimental - Violão/Guitarra
Aula experimental - Violão/GuitarraAula experimental - Violão/Guitarra
Aula experimental - Violão/Guitarraconexart
 
1ª tarefa conexart 2013
1ª tarefa conexart 20131ª tarefa conexart 2013
1ª tarefa conexart 2013conexart
 
Noite feliz
Noite felizNoite feliz
Noite felizconexart
 

Mais de conexart (12)

Boletim 2013 wesley gonçalves florentino
Boletim 2013   wesley gonçalves florentinoBoletim 2013   wesley gonçalves florentino
Boletim 2013 wesley gonçalves florentino
 
Boletim 2013 mateus patriota
Boletim 2013   mateus patriotaBoletim 2013   mateus patriota
Boletim 2013 mateus patriota
 
Tarefa 2º ano
Tarefa 2º anoTarefa 2º ano
Tarefa 2º ano
 
Tarefa 3º ano
Tarefa 3º anoTarefa 3º ano
Tarefa 3º ano
 
Cadencia harmonica
Cadencia harmonicaCadencia harmonica
Cadencia harmonica
 
Cadencia harmonica
Cadencia harmonicaCadencia harmonica
Cadencia harmonica
 
Gnr sweet child o' mine (without chords - guitar tabs)
Gnr   sweet child o' mine (without chords - guitar tabs)Gnr   sweet child o' mine (without chords - guitar tabs)
Gnr sweet child o' mine (without chords - guitar tabs)
 
Songbook -as_101_melhores_canções_do_século_xx_-_vol._1_-_almir_chediak
Songbook  -as_101_melhores_canções_do_século_xx_-_vol._1_-_almir_chediakSongbook  -as_101_melhores_canções_do_século_xx_-_vol._1_-_almir_chediak
Songbook -as_101_melhores_canções_do_século_xx_-_vol._1_-_almir_chediak
 
Nelson faria - Acordes Arpejos e Escalas para violão e guitarra
Nelson faria - Acordes Arpejos e Escalas para violão e guitarraNelson faria - Acordes Arpejos e Escalas para violão e guitarra
Nelson faria - Acordes Arpejos e Escalas para violão e guitarra
 
Aula experimental - Violão/Guitarra
Aula experimental - Violão/GuitarraAula experimental - Violão/Guitarra
Aula experimental - Violão/Guitarra
 
1ª tarefa conexart 2013
1ª tarefa conexart 20131ª tarefa conexart 2013
1ª tarefa conexart 2013
 
Noite feliz
Noite felizNoite feliz
Noite feliz
 

Borboletas - Victor e Leo

  • 1.   Borboletas - Victor e Leo Tom: D Intro: Bm E|---------------------------------2-5----------| B|---------2h3p2-------------2h3h5------5-3-3---| G|-------4-------4---------4--------------------| D|---2h4-----------4---2h4----------------------| A|----------------------------------------------| E|----------------------------------------------| Bm A E|-------------------------------------------------------------------| B|-------------------------------------------------------------------| G|---2-4-4-2---4-2---4-4-2---4-4-2---2-2-----2-----2-2-----2-2-------| D|-4---------4-----4-------4-------4-----4-2---4-2-----4-2-----4-2---| A|-------------------------------------------------------------------| E|-------------------------------------------------------------------| Bm G A E|-------------------------------------------------3-3------5-5------------| B|-3-3-2---3-2---3-3-2---2-3-2---------------------3-3------5-5------------| G|-------4-----4-------4-------2-4---2-2-4-4-------4-4------6-6--6-6-7-6---| D|-------------------------------4---2-2-4-4-----5--------7------7-7-7-7---| A|-------------------------------------------------------------------------| E|---------------------------------------------3--------5------------------| Riff 1: E|-------------| B|---7p5-------| G|-------6h7---| D|-------------| A|-------------| E|-------------| Riff 2: E|-----------------| B|---2h3p2---------| G|---------2-2h4---| D|-----------------| A|-----------------| E|-----------------|  
  • 2.   Riff 3: E|-------------------| B|-------7-7-7h8-8---| G|---6h7-------------| D|-------------------| A|-------------------| E|-------------------| Riff 4: E|-------------------| B|-------------------| G|-----------2-4-4---| D|-------2h4---------| A|---2h4-------------| E|-------------------| Riff 5: Riff 6: E|-----------------|-------------------| B|---------2-3-5---|-------------------| G|-------4---------|-------------------| D|---2h4-----------|---7-7-7-7-6-4-----| A|-----------------|---5-5-5-5-4-2-7---| E|-----------------|---------------5---| Bm D Percebo que o tempo já não passa A Bm (riff 1) Você diz que não tem graça amar assim Bm D Foi tudo tão bonito, mas voou pro infinito A Bm Parecido com borboletas de um jardim (riff 2) Em G Agora você volta D A E balança o que eu sentia por outro alguém (riff 3) Em G Dividido entre dois mundos A Bm Sei que estou amando mas ainda não sei quem  
  • 3.   Refrão: G D Não sei dizer o que mudou A Bm Mas nada está igual G D A Bm Numa noite estranha a gente se estranha e fica mal G D A Bm Você tenta provar que tudo em nós morreu G D Borboletas sempre voltam A Bm E o seu jardim sou eu. Solo Bm E|---14-14-14--15-15-15--14-14-14-14-14-14--15-15-15-15---| B|---15-15-15--15-15-15--15-15-15-15-15-15--15-15-15-15---| G|--------------------------------------------------------| D|--------------------------------------------------------| A|--------------------------------------------------------| E|--------------------------------------------------------| D E|-14-14-14--15-15-15--14-14-14-14-14-14--15-15-15-15---| B|-15-15-15--15-15-15--15-15-15-15-15-15--15-15-15-15---| G|------------------------------------------------------| D|------------------------------------------------------| A|------------------------------------------------------| E|------------------------------------------------------| A F#m E|-14-14-14--15-15-15--14-14-14-14-14-1412--12-12-129--9--9----| B|-15-15-15--15-15-15--15-15-15-15-15-1514--14-14-1410-10-10---| G|---------------------------------------------------------------| D|---------------------------------------------------------------| A|---------------------------------------------------------------| E|---------------------------------------------------------------| G A E|---------------3-3------5-5------------| B|---------------3-3------5-5------------| G|-2-2-4-4-------4-4------6-6--6-6-7-6---| D|-2-2-4-4-----5--------7------7-7-7-7---| A|---------------------------------------| E|-----------3--------5------------------|  
  • 4.   Bm D Percebo que o tempo já não passa A Bm (riff 4) Você diz que não tem graça amar assim Bm D Foi tudo tão bonito, mas voou pro infinito A Bm Parecido com borboletas de um jardim (riff 2) Em G Agora você volta D A E balança o que eu sentia por outro alguém (riff 5) Em G Dividido entre dois mundos A Bm Sei que estou amando mas ainda não sei quem (refrão) G D (riff 6) Não sei dizer o que mudou A Bm Mas nada está igual G D A Bm Numa noite estranha a gente se estranha e fica mal G D A Bm Você tenta provar que tudo em nós morreu G D Borboletas sempre voltam A Bm E o seu jardim sou eu. G D Sempre voltam A Bm E o seu jardim sou eu. Solo: Bm E|---16-16-16--17-17-17--16-16-16-16-16-16--17-17---------2---| B|---17-17-17--17-17-17--17-17-17-17-17-17--17-17---------2---| G|--------------------------------------------------------4---| D|--------------------------------------------------------4---| A|--------------------------------------------------------2---| E|------------------------------------------------------------|    
  • 5.